Love is War – Hatsune Miku (Bass tab)

Difficulty (1-5): 2
# Strings: 4
Tuning: EADG (Standard)
Reference: http://www.youtube.com/watch?v=3GJjmHZPJPA

0:11
G|------------------4~-------|
D|-------------0-2h4---------|
A|--2~--------2--------5~----|
E|-----3~--0~-------------0--|

G|--------------------------------------------------------------|
D|--------------------------------------------------------------|
A|--2-(x8)--------5-(x8)--------2-(x8)--------------------------|
E|---------3-(x8)--------5-(x8)--------0-(x8)-3-(x8)-5555-55-5--|

G|-----------------------------------------------------------|
D|-----------------------------------------------------------|
A|--2-(x8)--------5-(x8)--------2-(x8)-----------------------|
E|---------3-(x8)--------5-(x8)--------0-(x8)-3-(x8)-5-(x8)--|

0:55
G|------------------------|  <-
D|------------------------|   - Play
A|--2-2-------------------|   -4 Times
E|-------5-5-55-4-4--3-3--|  <-

G|------------------------------------------------------|
D|------------------------------------------------------|
A|------------------------------------222-2222-22-2222--|
E|--333-3333-33-3333-555-5555-55-5555-------------------|

G|-----------4-------2---|
D|------2h4-4--420-24-4--|
A|--222------------------|
E|-----------------------|

G|------------------------------------------------------|
D|------------------------------------------------------|
A|------------------------------------222-2222-22-2222--|
E|--333-3333-33-3333-555-5555-55-5035-------------------|

G|----------------------------|
D|--------------------5~------|
A|--555-5555-55-555h7----7~---|
E|----------------------------|

1:42
G|--------------------------------------------------------------|
D|--------------------------------------------------------------|
A|--2-(x8)--------5-(x8)--------2-(x8)--------------------------|
E|---------3-(x8)--------5-(x8)--------0-(x8)-3-(x8)-5555-55-5--|

G|-----------------------------------------------------------|
D|-----------------------------------------------------------|
A|--2-(x8)--------5-(x8)--------2-(x8)-----------------------|
E|---------3-(x8)--------5-(x8)--------0-(x8)-3-(x8)-5-(x8)--|

G|------------------------|  <-
D|------------------------|   - Play
A|--2-2-------------------|   -4 Times
E|-------5-5-55-4-4--3-3--|  <-

2:37
G|------------------------------------------------------|
D|------------------------------------------------------|
A|------------------------------------222-2222-22-2222--|
E|--333-3333-33-3333-555-5555-55-5555-------------------|

G|-----------4-------2---|
D|------2h4-4--420-24-4--|
A|--222------------------|
E|-----------------------|

G|------------------------------------------------------|
D|------------------------------------------------------|
A|------------------------------------222-2222-22-2222--|
E|--333-3333-33-3333-555-5555-55-5035-------------------|

G|-------------------------------|
D|--------------------5~-----7~--|
A|--555-5555-55-555h7----7~------|
E|-------------------------------|

3:07
G|--------------------------------------------------------------|
D|--------------------------------------------------------------|
A|--2-(x8)--------5-(x8)--------2-(x8)--------------------------|
E|---------3-(x8)--------5-(x8)--------0-(x8)-3-(x8)-5555-55-5--|

G|-----------------------------------------------------------|
D|-----------------------------------------------------------|
A|--2-(x8)--------5-(x8)--------2-(x8)-----------------------|
E|---------3-(x8)--------5-(x8)--------0-(x8)-3-(x8)-5-(x8)--|

G|--------------------------------------------------------------|
D|--------------------------------------------------------------|
A|--2-(x8)--------5-(x8)--------2-(x8)--------------------------|
E|---------3-(x8)--------5-(x8)--------0-(x8)-3-(x8)-5555-55-5--|

G|--------------------------------------------------------------|
D|--------------------------------------------------------------|
A|--2-(x8)--------5-(x8)--------2-(x8)----------------------2~--|
E|---------3-(x8)--------5-(x8)--------0-(x8)-3-(x8)-5-(x8)-----|
Advertisements

Leave a Reply

Fill in your details below or click an icon to log in:

WordPress.com Logo

You are commenting using your WordPress.com account. Log Out / Change )

Twitter picture

You are commenting using your Twitter account. Log Out / Change )

Facebook photo

You are commenting using your Facebook account. Log Out / Change )

Google+ photo

You are commenting using your Google+ account. Log Out / Change )

Connecting to %s