Ma Boy – Sistar19 (Bass tab)

Difficulty (1-5): 2
# Strings: 4
Tuning: EADG (Standard)
Reference: http://www.youtube.com/watch?v=yc5zQ8aZvw8

0:10
G|-------------------------------------|
D|------------1-1-0--0-----------------|
A|-----1-/31-----1----0---------1-/31--|
E|--1h3----------------3--31-1h3-------|

G|---------------------------|  <|
D|--1-1-0--0-----------------|  <| x12
A|-----1----0---------1-/31--|  <|
E|-----------3--31-1h3-------|  <|

2:31
G|--15-/17-\14-\12-/15-/17-/19-/22\--|
D|-----------------------------------|
A|-----------------------------------|
E|-----------------------------------|

2:52
G|---------------------------|  <|
D|--1-1-0--0-----------------|  <| x2
A|-----1----0---------1-/31--|  <|
E|-----------3--31-1h3-------|  <|
Advertisements

Leave a Reply

Fill in your details below or click an icon to log in:

WordPress.com Logo

You are commenting using your WordPress.com account. Log Out / Change )

Twitter picture

You are commenting using your Twitter account. Log Out / Change )

Facebook photo

You are commenting using your Facebook account. Log Out / Change )

Google+ photo

You are commenting using your Google+ account. Log Out / Change )

Connecting to %s