Choir Jail – Konomi Suzuki (Bass tab)

Difficulty (1-5): 4
# Strings: 4
Tuning: CGCF (Drop C)
Reference: http://www.youtube.com/watch?v=BrRqJU8n0wk

0:01
F|------------------------------------------------|
C|------------------------------------------------|
G|------2-1--------------4-/15\--22-22-22-44-458--|
C|--1-3-----1~ -/9~ -4~ --------------------------|

F|---------------|
C|---------------|
G|--65--43--211--|
C|----8---6------|

F|------------------------------------------------------------|
C|------------------------------------------------------------|
G|---------------------------------------------2-(x6)-1-(x6)--|
C|--1-(x6)-3-(x6)-4-(x6)-6-(x6)--1-(x6)-3-(x6)----------------|

F|------------------------|
C|------------------------|
G|--1~ ------------86-43--|
C|------6~ -5~ -1/--------|

F|-------------------------------------|
C|-------------------------------------|
G|--11111-11-111-111-------------------|
C|-------------------55555-55-555-555--|

F|----------------------------------------------|
C|----------------------------------------------|
G|----------------------------------------------|
C|--44444-44-33333-33333--11111-11-22222-22222--|

0:46
F|---------------------------------------------------------------3--|
C|--------------------------------------------------------------3---|
G|----------------4-4--44--444-33333-3-3-3-33-33--1-1-1-1-1-1-46----|
C|--4-04-044-0440--4--4---4-----------------------------------------|

F|---------------------------------------3-1----|
C|-------------------------------------------3--|
G|----------2-(x16)---------4-(x8)-1-2-4--------|
C|--1-(x16)---------4-(x16)---------------------|

F|-----------------------------------------------------------|
C|-----------------------------------------------------------|
G|----------2-(x16)---------4-(x8)-5-(x8)-22-22-22-44-458-6--|
C|--1-(x16)---------4-(x16)----------------------------------|

F|------------------------------------------------------------|
C|------------------------------------------------------------|
G|---------------------------------------------2-(x6)-1-(x6)--|
C|--1-(x6)-3-(x6)-4-(x6)-6-(x6)--1-(x6)-3-(x6)----------------|

1:29
F|------------------------------------------------------|
C|------------------------------------------------------|
G|--1--11-11-11----------------------------------86-43--|
C|---------------6-66-66-66--5-05-055-0550--1-11--------|

F|-------------------------------------|
C|-------------------------------------|
G|--11111-11-111-111-------------------|
C|-------------------55555-55-555-555--|

F|----------------------------------------------|
C|----------------------------------------------|
G|----------------------------------------------|
C|--44444-44-33333-33333--11111-11-22222-22222--|

F|---------------------------------------------------------------3--|
C|--------------------------------------------------------------3---|
G|----------------4-4--44--444-33333-3-3-3-33-33--1-1-1-1-1-1-46----|
C|--4-04-044-0440--4--4---4-----------------------------------------|

2:01
F|---------------------------------------3-1----|
C|-------------------------------------------3--|
G|----------2-(x16)---------4-(x8)-1-2-4--------|
C|--1-(x16)---------4-(x16)---------------------|

F|-----------------------------------------|
C|-----------------------------------------|
G|----------2-(x16)---------4-(x8)-5-(x8)--|
C|--1-(x16)---------4-(x16)----------------|

F|--------------------------------------------|
C|--------------------------------------------|
G|--22-22-22-44-458--65--43--211--------------|
C|---------------------8---6------1~ ---/12\--|

2:35
F|--------------------------------------------------------------------------|
C|--------------------------------------------------------------------------|
G|------------21-----------------2-(x8)----------------------2-(x8)-5-(x8)--|
C|--00-0-00-0---1--1-(x8)-4-(x8)--------6-(x8)-1-(x8)-4-(x8)----------------|

F|------------------------------------------------------------------------|
C|------------------------------------------------------------------------|
G|------------------------------------------------66666-86-1111-13131313--|
C|--6-(x8)-5-(x8)-4-(x8)-3-(x8)-33333-0333-030303-------------------------|

F|----------------------------------------------------3-1----|
C|--------------------------------------------------------3--|
G|--22-44-66-777777\---------------------4-(x8)-1-2-4--------|
C|-------------------1~ -/9-9999-4-(x16)---------------------|

F|-----------------------------------------|
C|-----------------------------------------|
G|----------2-(x16)---------4-(x8)-5-(x8)--|
C|--1-(x16)---------4-(x16)----------------|

F|---------------------|
C|---------------------|
G|--22-22-22-44-458-6--|
C|---------------------|

3:28
F|------------------------------------------------------------|
C|------------------------------------------------------------|
G|---------------------------------------------2-(x6)-1-(x6)--|
C|--1-(x6)-3-(x6)-4-(x6)-6-(x6)--1-(x6)-3-(x6)----------------|

F|------------------------------------------------------------|
C|------------------------------------------------------------|
G|---------------------------------------------2-(x6)-1-(x6)--|
C|--1-(x6)-3-(x6)-4-(x6)-6-(x6)--1-(x6)-3-(x6)----------------|

F|---------------|
C|---------------|
G|--11-11-11-11--|
C|---------------|
Advertisements

Leave a Reply

Fill in your details below or click an icon to log in:

WordPress.com Logo

You are commenting using your WordPress.com account. Log Out / Change )

Twitter picture

You are commenting using your Twitter account. Log Out / Change )

Facebook photo

You are commenting using your Facebook account. Log Out / Change )

Google+ photo

You are commenting using your Google+ account. Log Out / Change )

Connecting to %s