Loving U – Sistar (Bass tab)

Difficulty (1-5): 3
# Strings: 4
Tuning: EADG (Standard)
Reference: http://www.youtube.com/watch?v=j2zwig9U8gE

0:10
G|--------------------------------------------|
D|----------------------/9-7--------/7-6-4----|
A|--/9-----------------7----7-------------4---|
E|-----9p7-9p75-5-55-5---------2-22--------2--|

G|----4h6p4---------------/6-4p2-4p2---|
D|---------------2-222-2h4----------4--|
A|--2-------22-22----------------------|
E|-------------------------------------|

G|---------------------------------------------------|
D|----------/9-7--------/7-6-4------------2-22-22-2--|
A|---------7----7-------------4---2-222-22-----------|
E|--5-55-5---------2-22--------2---------------------|

0:42
G|-----------------------------------------|
D|------------------------------4--4-------|
A|------------------------------------4p0--|
E|--5555555-4454-5-45-2222222-22-2--2------|

G|-------------------------------------|
D|--------------------222222222222222--|
A|--2222222-0020-2-02------------------|
E|-------------------------------------|

G|--------------------------------/11-9-----|
D|-----/9-7----/9-7----/4------/4-------11--|
A|----7-------7-------4--4----4-------------|
E|--5-------5-------2-------2---------------|

G|------------7/9\7-7-------------|
D|----------7---------------------|
A|--55-55-5-----------------------|
E|-------------------00-00-00-00--|

G|----------------------------------|
D|-----/9-7----/9-7----/4------/4---|
A|----7-------7-------4--4----4--4--|
E|--5-------5-------2-------2-------|

G|------7h9p7-----7h9p7-7----------|
D|----7---------7------------------|
A|--5---------5--------------------|
E|-----------------------00-00-00--|

1:29
G|---------------------------------------------------|
D|----------/9-7--------/7-6-4------------2-22-22-2--|
A|---------7----7-------------4---2-222-22-----------|
E|--5-55-5---------2-22--------2---------------------|

G|-----------------------------------------|
D|------------------------------4--4-------|
A|------------------------------------4p0--|
E|--5555555-4454-5-45-2222222-22-2--2------|

G|-------------------------------------|
D|--------------------222222222222222--|
A|--2222222-0020-2-02------------------|
E|-------------------------------------|

2:01
G|--------------------------------/11-9-----|
D|-----/9-7----/9-7----/4------/4-------11--|
A|----7-------7-------4--4----4-------------|
E|--5-------5-------2-------2---------------|

G|------------7/9\7-7-------------|
D|----------7---------------------|
A|--55-55-5-----------------------|
E|-------------------00-00-00-00--|

G|----------------------------------|
D|-----/9-7----/9-7----/4------/4---|
A|----7-------7-------4--4----4--4--|
E|--5-------5-------2-------2-------|

G|------7h9p7-----7h9p7-7----------|
D|----7---------7------------------|
A|--5---------5--------------------|
E|-----------------------00-00-00--|

2:33
G|-----------------------------------|
D|-----/11-----/11-----/12------9----|
A|------------------5-5-----7-77-11--|
E|--5-5-----2-2----------------------|

G|---------------------------------|
D|-----/11-----/11-----/12---------|
A|------------------5-5-----77777--|
E|--5-5-----2-2--------------------|

G|--------------------------------/11-9-----|
D|-----/9-7----/9-7----/4------/4-------11--|
A|----7-------7-------4--4----4-------------|
E|--5-------5-------2-------2---------------|

G|------------7/9\7-7-------------|
D|----------7---------------------|
A|--55-55-5-----------------------|
E|-------------------00-00-00-00--|

G|----------------------------------|
D|-----/9-7----/9-7----/4------/4---|
A|----7-------7-------4--4----4--4--|
E|--5-------5-------2-------2-------|

G|------7h9p7-----7h9p7-7-------------|
D|----7---------7---------------------|
A|--5---------5-----------------------|
E|-----------------------00-00-00-00--|

G|--------------------------------/11-9-----|
D|-----/9-7----/9-7----/4------/4-------11--|
A|----7-------7-------4--4----4-------------|
E|--5-------5-------2-------2---------------|

G|------------7/9\7-7----------|
D|----------7------------------|
A|--55-55-5--------------------|
E|-------------------00-00-00--|
Advertisements

Leave a Reply

Fill in your details below or click an icon to log in:

WordPress.com Logo

You are commenting using your WordPress.com account. Log Out / Change )

Twitter picture

You are commenting using your Twitter account. Log Out / Change )

Facebook photo

You are commenting using your Facebook account. Log Out / Change )

Google+ photo

You are commenting using your Google+ account. Log Out / Change )

Connecting to %s