Go!Go! Gouda – Buono! (Bass tab)

Difficulty (1-5): 3
# Strings: 4
Tuning: DADG (Drop D)
Reference: http://www.youtube.com/watch?v=8Ny8NV4et-I

* Recommended

0:01
G|-----------------------------------------------------|
D|-----------------------------------------------------|
A|--66666-44444-------2124\----------------------------|
D|--------------66-88--------1111111/131313-1113-1113--|

G|----------------------------------|
D|------1-3-11---3------1-3-11---3--|
A|-----1-4----414------1-4----414---|
D|--11--------------11--------------|

G|-----------------------------------|
D|-----------------------------------|
A|-----------------------------------|
D|--6/888-6/88-6/8888-86-111111/12\--|

0:18
G|----------5h8---------5h8---------5h8--------------|
D|----5h8-66------5h8-66------5h8-66-----------------|
A|--66----------66----------66-----------------------|
D|--------------------------------------6/88-6/8888--|

G|----------5h8---------5h8---------5h8----------------|
D|----5h8-66------5h8-66------5h8-66-------------------|
A|--66----------66----------66-------------------------|
D|--------------------------------------6/88-6/8888-1--|

G|--------------------------------------------|
D|--------------------------6p4-------6p4-----|
A|-----------------------------6---4h6---6----|
D|--19\--444444-66666666-444-----66--------1--|

G|---------------------------------|
D|--/1311--------------------------|
A|--------13p11-9------------------|
D|----------------444444-66666666--|

G|------------------------------------------------------|
D|------------------------------------------------------|
A|------9-11p9--------9-11p9----------------------------|
D|--4-13------13-66-13------13-111111/131313-1113-1113--|

0:52
G|--------------------------------------------------------|
D|--------------------------------------------------------|
A|----------/111111----------------------------8p7--------|
D|--6-(x23)--------131313-6-5(x13)-5h7-10-(x8)----101010--|

G|---------------------------------------------|
D|---------------------------------------------|
A|----------/11-1311-------131313-111111-------|
D|--6-(x10)----------7(x7)---------------1313--|

G|-------------------------------------|
D|-------------------------------------|
A|-------------------------------------|
D|--8888888-6666666-555555-999-111111--|

1:13
G|-------------------------------------|
D|---------6/9-9-(x6)-10-(x7)-11-(x7)--|
A|--6-(x6)-----------------------------|
D|-------------------------------------|

G|----------------------------------------|
D|-------------------------------------1--|
A|-----------------------33-11-1h3-1h3----|
D|--6-(x7)-5-(x7)-3-(x5)------------------|

G|--------------4-------5---------------|
D|--------------------------------------|
A|----------2222-22-3333-33-444-333-11--|
D|--1111111-----------------------------|

G|------------------------------------------|
D|------------------------------------------|
A|--------------------------1--/6646-/6646--|
D|--6-56-656-8101010-3333333----------------|

G|----------------------------------|
D|------1-3-11---3------1-3-11---3--|
A|-----1-4----414------1-4----414---|
D|--11--------------11--------------|

G|----------------------------|
D|----------------------------|
A|----------------------------|
D|--6/888-6/88-6/8888-86-1~ --|
Advertisements

Leave a Reply

Fill in your details below or click an icon to log in:

WordPress.com Logo

You are commenting using your WordPress.com account. Log Out / Change )

Twitter picture

You are commenting using your Twitter account. Log Out / Change )

Facebook photo

You are commenting using your Facebook account. Log Out / Change )

Google+ photo

You are commenting using your Google+ account. Log Out / Change )

Connecting to %s