Ginger – Exist Trace (Bass tab)

Difficulty (1-5): 3
# Strings: 4
Tuning: EADG (Standard)
Reference: http://www.youtube.com/watch?v=8nYx9VsV2Ws

0:14
G|-------------------------------|
D|-------------------------------|
A|-------------------------------|
E|--55-33-11-00-(x3)--1111-0457--|

G|----------------------------|
D|----------------------------|
A|----------------------------|
E|--55-33-11-00-(x3)--1111-0--|

G|------------------------------|
D|------------------------------|
A|-----33-----------------------|
E|--55----1-10-(x3)--1111-0457--|

G|----------------------------|
D|----------------------------|
A|-----33---------------------|
E|--55----1-10-(x3)--0--0--0--|

0:48
G|-------------------------------|
D|-------------------------------|
A|-------------------------------|
E|--55-33-11-00-(x3)--1111-0457--|

G|-------------------------------|
D|-------------------------------|
A|-------------------------------|
E|--55-33-11-00-(x3)--1111-0457--|

G|-------------------------------------------|
D|-------------------------------------------|
A|-------3-3-3202----------------------------|
E|--1-1------------555-055-050--555-055-050--|

G|----------------------------------------|
D|----------------------------------------|
A|-------3-3--3---5--------------7-(x15)--|
E|--1-1--------3-5---333-033-033----------|

1:21
G|-----------------------------------------------------|
D|-----------------------------------------------------|
A|-----3------------------------3---------------/75----|
E|--55--5--11-35--1111-0457--55--5--11-35--1111----87--|

G|-------------------------------------------------|
D|-------------------------------------------------|
A|-----3------------------------3---------8888887--|
E|--55--5--11-35--1111-0457--55--5--11-35----------|

G|----------------------------|
D|----------------------------|
A|-----33---------------------|
E|--55----1-10-(x3)--0--0--0--|

G|-------------------------------|
D|-------------------------------|
A|-------------------------------|
E|--55-33-11-00-(x3)--1111-0457--|

G|-------------------------------|
D|-------------------------------|
A|-------------------------------|
E|--55-33-11-00-(x3)--1111-0457--|

2:03
G|-------------------------------------------|
D|-------------------------------------------|
A|-------3-3-3202----------------------------|
E|--1-1------------555-055-050--555-055-050--|

G|---------------------------------------|
D|---------------------------------------|
A|-------3-3--3---5----------------------|
E|--1-1--------3-5---333-033-033--00000--|

G|-----------------------------------------------------|
D|-----------------------------------------------------|
A|-----3------------------------3---------------/75----|
E|--55--5--11-35--1111-0457--55--5--11-35--1111----87--|

G|-------------------------------------------------|
D|-------------------------------------------------|
A|-----3------------------------3---------8888887--|
E|--55--5--11-35--1111-0457--55--5--11-35----------|

2:38
G|-------------------------------|
D|--------------10---6-----------|
A|-------55-5-88---77------------|
E|--55-5---------------55-5-034--|

G|-------------------------------|
D|--------------10---6-----------|
A|-------55-5-88---77-------034--|
E|--55-5---------------55-5------|

G|--------------------------------------|
D|--------------------------------------|
A|--5-7-8-10-------7-5-3-2---------12\--|
E|-----------5-7-8---------3-5-7-8------|

G|--------------------------------------|
D|--------------------------------------|
A|--5-7-8-10-12---75----6-9-6--7-(x10)--|
E|--------------5---8-7-----------------|

3:18
G|---------------------------------------------------|
D|------/66-/77-/99--101010999777--------------------|
A|--/77--------------------------101010777555--------|
E|-------------------------------------------888777--|

G|-----------------------------------------------------|
D|-----------------------------------------------------|
A|-----3------------------------3---------------/75----|
E|--55--5--11-35--1111-0457--55--5--11-35--1111----87--|

G|---------------------------|
D|---------------------------|
A|-----3---------------------|
E|--55--5--11-35--1111-0457--|

G|-----------------------------------------------------------|
D|-----------------------------------------------------------|
A|-----------------------------------------------------------|
E|--5555-7777-8888-9999-10101010-11111111-12121212-16-(x12)--|

3:43
G|-----------------------------------------------------|
D|-----------------------------------------------------|
A|-----3------------------------3---------------/75----|
E|--55--5--11-35--1111-0457--55--5--11-35--1111----87--|

G|-------------------------------------------------|
D|-------------------------------------------------|
A|-----3------------------------3---------8888887--|
E|--55--5--11-35--1111-0457--55--5--11-35----------|

G|----------------------------------------------------------------|
D|----------------------------------------------------------------|
A|-----33-------------------3--66-5h65h6-3-66-5h65h6-3--6-5-------|
E|--55----1-10-(x3)--111-0h1---------------------------------10\--|
Advertisements

One thought on “Ginger – Exist Trace (Bass tab)

Leave a Reply

Fill in your details below or click an icon to log in:

WordPress.com Logo

You are commenting using your WordPress.com account. Log Out / Change )

Twitter picture

You are commenting using your Twitter account. Log Out / Change )

Facebook photo

You are commenting using your Facebook account. Log Out / Change )

Google+ photo

You are commenting using your Google+ account. Log Out / Change )

Connecting to %s