Way to Go! – Girls Generation (Bass tab)

Difficulty (1-5): 2
# Strings: 4
Tuning: EADG (Standard)
Reference: http://www.youtube.com/watch?v=W_Hcnwu7cVk

0:10
G|---------------------------------------------------------|
D|---------------------------------------------------------|
A|----------------3-(x15)--1-(x11)-1-0------------/6-(x7)--|
E|--/15\--1-(x15)-----------------------3--1-(x8)----------|

G|---------------------------------|
D|---------------------------------|
A|--5--1--------5--1--1h3-3-3-33\--|
E|--------1/13---------------------|

0:32
G|------------------------------------------------------------|
D|------------------------------------------------------------|
A|--------------------5-(X6)--1-(X8)--3-(X6)------------------|
E|--1-(X15)--0-(X15)--------------------------3-(X4)--6-(X4)--|

G|------------------------------------------------------|
D|------------------------------------------------------|
A|--------------------5-(X6)--1-(X8)--3-(X8)--/15-(X6)--|
E|--1-(X15)--0-(X15)------------------------------------|

G|---------------------------------------------------------|
D|---------------------------------------------------------|
A|----------------3-(x15)--1-(x11)-1-0------------/6-(x7)--|
E|--21\--1-(x15)-----------------------3--1-(x8)-----------|

G|----------------------------------------------------|
D|----------------------------------------------------|
A|-----------3-(x15)--1-(x11)-1-0------------/6-(x7)--|
E|--1-(x15)-----------------------3--1-(x8)-----------|

G|--------------------------------------|
D|--------------------------------------|
A|--5--1-------------5--1--1h3-3-3-33\--|
E|--------1/11-1/11---------------------|

1:31
G|------------------------------------------------------------|
D|------------------------------------------------------------|
A|--------------------5-(X6)--1-(X8)--3-(X6)------------------|
E|--1-(X15)--0-(X15)--------------------------3-(X4)--6-(X4)--|

G|------------------------------------------------------|
D|------------------------------------------------------|
A|--------------------5-(X6)--1-(X8)--3-(X8)--/15-(X6)--|
E|--1-(X15)--0-(X15)------------------------------------|

2:02
G|---------------------------------------------------|
D|---------------------------------------------------|
A|-------1-(X15)--3-(X15)--1-(X15)--3-(X8)-/15-(X6)--|
E|--21\----------------------------------------------|

G|------------------------------------------------------------|
D|------------------------------------------------------------|
A|--8-(X15)--7-(X15)--5-(X6)--1-(X8)--3-(X6)------------------|
E|--------------------------------------------3-(X4)--6-(X4)--|

G|------------------------------------------------------|
D|------------------------------------------------------|
A|--------------------5-(X6)--1-(X8)--3-(X8)--/15-(X6)--|
E|--1-(X15)--0-(X15)------------------------------------|

G|------------------------------------------------------------|
D|------------------------------------------------------------|
A|--------------------5-(X6)--1-(X8)--3-(X6)------------------|
E|--1-(X15)--0-(X15)--------------------------3-(X4)--6-(X4)--|

G|------------------------------------------------------|
D|------------------------------------------------------|
A|--8-(X15)--7-(X15)--5-(X6)--1-(X8)--3-(X8)--/15-(X6)--|
E|------------------------------------------------------|
Advertisements

One thought on “Way to Go! – Girls Generation (Bass tab)

Leave a Reply

Fill in your details below or click an icon to log in:

WordPress.com Logo

You are commenting using your WordPress.com account. Log Out / Change )

Twitter picture

You are commenting using your Twitter account. Log Out / Change )

Facebook photo

You are commenting using your Facebook account. Log Out / Change )

Google+ photo

You are commenting using your Google+ account. Log Out / Change )

Connecting to %s