Sleeper – D (Bass tab)

Difficulty (1-5): 4
# Strings: 4
Tuning: EADG (Standard)
Reference: http://www.youtube.com/watch?v=gZuS2VzsF4M

0:01
G|---------------|
D|---------------|
A|-----8---------|
E|--6-6-6--8668--|

G|------------------------------------------------------------------|
D|------------------------------------------------------------------|
A|--555-555------------------------555-587--------------------------|
E|----------555-35-6666-56-8888-68---------5555-35-6666-56-8888-68--|

G|---------------------------------------------------------------|
D|---------------------------------------------------------------|
A|--555-555------------------------555-587---------5-4-3333-777--|
E|----------555-35-6666-56-8888-68---------5555-35---------------|

0:23
G|--------------------------------------|
D|--------------------------------------|
A|--555-555---------333-333-33-55-77-3--|
E|----------1111-31---------------------|

G|--------------------------------------|
D|--------------------------------------|
A|--555-555---------333-333-55-77-10-8--|
E|----------1111-31---------------------|

G|------------------------------------------------------------------|
D|------------------------------------------------------------------|
A|--555-555-555-555--------------------------------------5-4444-87--|
E|------------------555-555-555-035-6666-86-5555-35-6666------------|

G|---------------------------------------------------------------------------|
D|---------------------------------------------------------------------------|
A|--555-555-555-555---------------------------------5555555-/1212-1010-88-9--|
E|------------------555-555-555-035-6666-56-8888-68--------------------------|

0:51
G|-----------------------------------------------------------------|
D|-----------------------------------------------------------------|
A|--555-555-55--335-333-333-33--113-111-111-11---------/7-5-4-5-7--|
E|------------55--------------33--------------00113-/5-------------|

G|-------------------------------------------------------------------|
D|------------------------------------------------------------/7-/7--|
A|--555-555-55--335-333-333-33--113-111-111-11---------/7-5-4--------|
E|------------55--------------33--------------00113-/5---------------|

G|------------------------------------------------------------------|
D|------------------------------------------------------------------|
A|--555-555------------------------555-587--------------------------|
E|----------555-35-6666-56-8888-68---------5555-35-6666-56-8888-68--|

G|------------------------------------------------------------------|
D|------------------------------------------------------------------|
A|--555-555------------------------555-587---------5-4-3333-777-5\--|
E|----------555-35-6666-56-8888-68---------5555-35------------------|

1:33
G|----------------------------------------------------------|
D|-------------------3--------3--------3--------2--------2--|
A|--/17-(x23)--50-3h5---50-3h5---50-3h5---30-2h3---30-2h3---|
E|---------------5--------5--------5--------3--------3------|

G|--------------------------------------|
D|--------3--------3--------2--------2--|
A|--50-3h5---50-3h5---30-2h3---30-2h3---|
E|----5--------5--------3--------3------|

G|--------------------------------------------|
D|--------3--------------------2--------------|
A|--50-3h5---55----------30-2h3---33-55-77-3--|
E|----5---------55-33-1----3------------------|

G|---------------------------------------------|
D|--------3--/77-55-------------2--------------|
A|--50-3h5----------88-7--30-2h3---33-55-77-8--|
E|----5---------------------3------------------|

1:57
G|-------------------------------------------------------------------|
D|-------------------------------------------------------------------|
A|--555-555-------------------------555-587--------------------------|
E|----------5555-35-6666-56-8888-68---------5555-35-6666-56-888-6-8--|

G|--------------------------------------------------------------------|
D|--------------------------------------------------------------------|
A|--555-555-------------------------555-587---------------------------|
E|----------555-535-6666-56-8888-68---------5555-35-6666-56-888-8888--|

G|------------------------------------------------------|
D|------------------------------------------------------|
A|--5--5--5-35----7------------8-------------8-----10---|
E|----5---------5--5--5-35--66--6--55-35--66---6--8--8--|

G|---------------------------------------------------------------|
D|----------------7----------------------------------------------|
A|--5--5-5-5h78-7--7-7-57-----8------7---55-555-/1212-1010-88-7--|
E|----5--------------------66--6--55--5--------------------------|

2:35
G|--------------------------------------------|
D|--------------------------------------------|
A|--5~--5~ --3~--3~ --1~--1~ -----/7-5-4-5-7--|
E|----5~~~ ----3~~~ ----1~~~ --/5-------------|

G|--------------------------------------------|
D|--------------------------------------------|
A|--5~--5~ --3~--3~ --1~--1~ -----/7-5-4-5-7--|
E|----5~~~ ----3~~~ ----1~~~ --/5-------------|

G|-----------------------------------------------------------------|
D|-----------------------------------------------------------------|
A|--555-555-55--335-333-333-33--113-111-111-11---------/7-5-4-5-7--|
E|------------55--------------33--------------00113-/5-------------|

G|-------------------------------------------------------------------|
D|------------------------------------------------------------/7-/7--|
A|--555-555-55--335-333-333-33--113-111-111-11---------/7-5-4--------|
E|------------55--------------33--------------00113-/5---------------|

G|----7-------------------------------------------------------------------|
D|--/7-7------------------------------------------------------------------|
A|--------555-555------------------------555-587--------------------------|
E|----------------55-535-6666-56-8888-68---------5555-35-6666-56-8888-68--|

G|-----------------------------------------------------------------|
D|-----------------------------------------------------------------|
A|--555-555-------------------------555-587----------5-4-3333-777--|
E|----------555-535-6666-56-888-6-8---------5555-35----------------|

3:33
G|-------------------------------------|
D|-------------------------------------|
A|--5-5-5-5----------------------------|
E|----------5-5-3-5--6-6-5-6--8-8-6-8--|

G|------------------------------------|
D|------------------------------------|
A|--55-587----------------------------|
E|---------5-5-3-5--6-6-5-6--8-8-6-8--|

G|-------------------------------------|
D|-------------------------------------|
A|--5-5-5-5----------------------------|
E|----------5-5-3-5--6-6-5-6--8-8-6-8--|

G|--------------------------------|
D|--------------------------------|
A|--55-587----------5-4-3333-777--|
E|---------5-5-3-5----------------|

G|--------------------------------------------------------------------|
D|--------------------------------------------------------------------|
A|--555-555------------------------555-587--------------8--------10---|
E|----------55-535-6666-56-8888-68---------5555-35-6666--66-8888---8--|

G|---------------------------------------------------------------|
D|---------------------------------------------------------------|
A|--555-555------------------------555-587---------5-4-3333-777--|
E|----------55-535-6666-56-8888-68---------5555-35---------------|

G|------------------------------------------------------------------|  < --
D|------------------------------------------------------------------|   |
A|--555-555------------------------555-587--------------------------|   |
E|----------555-35-6666-56-8888-68---------5555-35-6666-56-8888-68--|   |Play
                                                                        |Until
G|---------------------------------------------------------------|      |End
D|---------------------------------------------------------------|      |
A|--555-555------------------------555-587---------5-4-3333-777--|      |
E|----------555-35-6666-56-8888-68---------5555-35---------------|     < --
Advertisements

Leave a Reply

Fill in your details below or click an icon to log in:

WordPress.com Logo

You are commenting using your WordPress.com account. Log Out / Change )

Twitter picture

You are commenting using your Twitter account. Log Out / Change )

Facebook photo

You are commenting using your Facebook account. Log Out / Change )

Google+ photo

You are commenting using your Google+ account. Log Out / Change )

Connecting to %s