Tree Frog – PSY feat G-Dragon (Bass tab)

Difficulty (1-5): 2
# Strings: 4
Tuning: CGCF (Drop C)
Reference: http://www.youtube.com/watch?v=7gs7T65F5Fo

0:07
F|------------------------| <-
C|------------------------|  |Play
G|----5-035----5-053-035--|  |6 Times
C|--00-------00-----------| <-

F|-------------------------------------------------------------|
C|-------------------------------------------------------------|
G|--535-5323-101--1-333-033-03---535-5323-101--111-011-011-3\--|
C|-------------------------------------------------------------|

0:45
F|----------------------------------------|
C|----------------------------------------|
G|--55555555-33333333----------11111-333--|
C|--------------------55555555------------|

F|----------------------------------------|
C|----------------------------------------|
G|--55555555-33333333----------11111-333--|
C|--------------------55555555------------|

F|------------------------------------------|
C|------------------------------------------|
G|------------11111111-11111111/-13-(x18)\--|
C|--55555555--------------------------------|

F|-------------|
C|-------------|
G|--5\-----5\--|
C|-------------|

1:17
C|------------------------| <-
F|------------------------|  |Play
G|----5-035----5-053-035--|  |4 Times
C|--00-------00-----------| <-

F|-------------------------------------------------------------|
C|-------------------------------------------------------------|
G|--535-5323-101--1-333-033-03---535-5323-101--111-011-011-3\--|
C|-------------------------------------------------------------|

F|----------------------------------------|
C|----------------------------------------|
G|--55555555-33333333----------11111-333--|
C|--------------------55555555------------|

F|----------------------------------------|
C|----------------------------------------|
G|--55555555-33333333----------11111-333--|
C|--------------------55555555------------|

F|------------------------------------------|
C|------------------------------------------|
G|------------11111111-11111111/-13-(x18)\--|
C|--55555555--------------------------------|

F|-------------|
C|-------------|
G|--5\-----5\--|
C|-------------|

2:20
F|-----------------------------|
C|-----------------------------|
G|--1~ ---1~ ---1--1--1-2-3-4--|
C|-----------------------------|

F|------------------------| <-
C|------------------------|  |Play
G|----5-035----5-053-035--|  |4 Times
C|--00-------00-----------| <-

F|--------------------------------------------|
C|--------------------------------------------|
G|--1-1-1-1/13-13-13-13--1-1-1-1/13-13-13-13--|
C|--------------------------------------------|

F|-----------------------------------------------------|
C|-----------------------------------------------------|
G|--0-0-0-0/12-12-12-12--0-0-0-0/12-12-12-12--0-1-3-4--|
C|-----------------------------------------------------|

2:54
F|----------------------------------------|
C|----------------------------------------|
G|--55555555-33333333----------11111-333--|
C|--------------------55555555------------|

F|----------------------------------------|
C|----------------------------------------|
G|--55555555-33333333----------11111-333--|
C|--------------------55555555------------|

F|------------------------------------------|
C|------------------------------------------|
G|------------11111111-11111111/-13-(x18)\--|
C|--55555555--------------------------------|

F|---------------------------------------------|
C|---------------------------------------------|
G|--5-3-5-3-5-6--5-3-5-3-5-6--5-3-5-3-5-6-5~ --|
C|---------------------------------------------|
Advertisements

Leave a Reply

Fill in your details below or click an icon to log in:

WordPress.com Logo

You are commenting using your WordPress.com account. Log Out / Change )

Twitter picture

You are commenting using your Twitter account. Log Out / Change )

Facebook photo

You are commenting using your Facebook account. Log Out / Change )

Google+ photo

You are commenting using your Google+ account. Log Out / Change )

Connecting to %s