Magic Girl – Orange Caramel (Bass tab)

Difficulty (1-5): 3
# Strings: 5
Tuning: BEADG (Standard)
Reference: N/A

I tried to find a way to make this playable on 4 string and still sound correct, 
but it just makes it way too difficult to be viable.
Sorry 4-stringers.

0:01
G|-----------------------------------|
D|-----------------------------------|
A|------------------------------7-9--|
E|--/15\--77-5-3--5-7-5--7-9-10------|
B|-----------------------------------|

G|-----------------------------|
D|-----------------------------|
A|--7-7-7-7-7-5-----7-8-9------|
E|--------------7-9---------2--|
B|-----------------------------|

G|-----------------------------|
D|-----------------------------|
A|------------------------7-9--|
E|--77-5-3--5-7-5--7-9-10------|
B|-----------------------------|

G|---------------------------------------|
D|-----------7-8-9-----------------------|
A|--7-9-10-9-------------7-8-7h8p7-------|
E|------------------7-10-----------10-7--|
B|---------------------------------------|

0:16
G|--------------------------------|
D|--------------------------------|
A|--------------------------------|
E|--7-7-5-7--7-6-7--7-5-7--7-5-2--|
B|--------------------------------|

G|----------------------------------|
D|----------------------------------|
A|--------8-7-5----------4-5-6-7-8--|
E|--3-5-7-------7--2-4-6------------|
B|----------------------------------|

G|--------------------------------|
D|--------------------------------|
A|--------------------------------|
E|--7-7-5-7--7-6-7--7-5-7--7-5-2--|
B|--------------------------------|

G|-----------------------------------|
D|------------------------4-5-4-3-4--|
A|--------8-7-5----------------------|
E|--3-5-7-------7--2-4-6-------------|
B|-----------------------------------|

0:30
G|------------4----------------------------|
D|--2---2-4-5---7---------------4-7-5------|
A|----2-----------7-----5---5-7-------5----|
E|------------------5-----5-------------3--|
B|-----------------------------------------|

G|----------------------------------------|
D|--------------------4-4-4-4-5-2-4--6-8--|
A|--3-3-3-3--4-4-4-4----------------------|
E|----------------------------------------|
B|----------------------------------------|

0:44
G|-------------------------------------------------------|
D|-------------------------------------------------------|
A|--2-2------------------4-4h6--4-4-4-4-4---4-1-3-4-6----|
E|------3---2-3-2--4-6-7------------------4--------------|
B|--------4-------------------------------------------4--|

G|---------------------------------------------------|
D|--------------------------------------3-5-6--------|
A|--2-2------------------4-4h6--4-6-7-6-------6------|
E|------3---2-3-2--4-6-7------------------------7-4--|
B|--------4------------------------------------------|

G|-------------------------------------------------------|
D|-------------------------------------------------------|
A|--2-2------------------4-4h6--4-4-4-4-4---4-1-3-4-6----|
E|------3---2-3-2--4-6-7------------------4--------------|
B|--------4-------------------------------------------4--|

G|---------------------------------------------------------|
D|--------------------------------------3-5-6--------/17\--|
A|--2-2------------------4-4h6--4-6-7-6-------6------------|
E|------3---2-3-2--4-6-7------------------------7-4--------|
B|--------4------------------------------------------------|

1:13
G|-----------------------------|
D|-----------------------------|
A|------------------------7-9--|
E|--77-5-3--5-7-5--7-9-10------|
B|-----------------------------|

G|-----------------------------|
D|-----------------------------|
A|--7-7-7-7-7-5-----7-8-9------|
E|--------------7-9---------2--|
B|-----------------------------|

G|-----------------------------------|
D|-----------------------------------|
A|------------------------------7-9--|
E|--/15\--77-5-3--5-7-5--7-9-10------|
B|-----------------------------------|

G|---------------------------------------|
D|-----------7-8-9-----------------------|
A|--7-9-10-9-------------7-8-7h8p7-------|
E|------------------7-10-----------10-7--|
B|---------------------------------------|

1:27
G|------------------------|
D|-------------4-5-6-7-8--|
A|------------------------|
E|--7--7--3--2------------|
B|------------------------|

G|--------------------------------|
D|--------------------------------|
A|--------------------------------|
E|--7-7-5-7--7-6-7--7-5-7--7-5-2--|
B|--------------------------------|

G|-----------------------------------|
D|------------------------4-5-4-3-4--|
A|--------8-7-5----------------------|
E|--3-5-7-------7--2-4-6-------------|
B|-----------------------------------|

1:41
G|------------4----------------------------|
D|--2---2-4-5---7---------------4-7-5------|
A|----2-----------7-----5---5-7-------5----|
E|------------------5-----5-------------3--|
B|-----------------------------------------|

G|----------------------------------------|
D|--------------------4-4-4-4-5-2-4--6-8--|
A|--3-3-3-3--4-4-4-4----------------------|
E|----------------------------------------|
B|----------------------------------------|

1:55
G|-------------------------------------------------------|
D|-------------------------------------------------------|
A|--2-2------------------4-4h6--4-4-4-4-4---4-1-3-4-6----|
E|------3---2-3-2--4-6-7------------------4--------------|
B|--------4-------------------------------------------4--|

G|---------------------------------------------------|
D|--------------------------------------3-5-6--------|
A|--2-2------------------4-4h6--4-6-7-6-------6------|
E|------3---2-3-2--4-6-7------------------------7-4--|
B|--------4------------------------------------------|

G|-------------------------------------------------------|
D|-------------------------------------------------------|
A|--2-2------------------4-4h6--4-4-4-4-4---4-1-3-4-6----|
E|------3---2-3-2--4-6-7------------------4--------------|
B|--------4-------------------------------------------4--|

G|---------------------------------------------------|
D|--------------------------------------3-5-6--------|
A|--2-2------------------4-4h6--4-6-7-6-------6------|
E|------3---2-3-2--4-6-7------------------------7-4--|
B|--------4------------------------------------------|

2:23
G|--------------------------------------------|
D|--------------------------------------------|
A|---------------------------------------4----|
E|--4-44-22-4--4-44-22-4--4-44-22-4--4-4---2--|
B|--------------------------------------------|

G|--------------------------------------------|
D|--------------------------------------------|
A|---------------------------------------4----|
E|--4-44-22-4--4-44-22-4--4-44-22-4--4-4---2--|
B|--------------------------------------------|

G|--------------------------------------------|
D|---------------------------------------4----|
A|--4-44-22-4--4-44-22-4--4-44-22-4--4-4---2--|
E|--------------------------------------------|
B|--------------------------------------------|

G|-----------------------------|
D|-----------------------------|
A|-----------------------------|
E|--4-44-22-4--4-44-22-4--4~ --|
B|-----------------------------|

2:44
G|---------------------------------------------------|
D|--------------------------------------3-5-6--------|
A|--2-2------------------4-4h6--4-6-7-6-------6------|
E|------3---2-3-2--4-6-7------------------------7-4--|
B|--------4------------------------------------------|

G|--------------------------------------------------------|
D|--------------------------------------------------------|
A|------------------------5-5h7--5-5-5-5-5---5-2-4-5-7----|
E|--5-5-3-1--3-5-3--5-7-8------------------5-----------0--|
B|--------------------------------------------------------|

G|-------------------------------------------------------------|
D|---------------------------------------4-6-7-----------------|
A|------------------------5-5h7--5-7-8-7-------7---------------|
E|--5-5-3-1--3-5-3--5-7-8------------------------8-5--/19-19\--|
B|-------------------------------------------------------------|
Advertisements

Leave a Reply

Fill in your details below or click an icon to log in:

WordPress.com Logo

You are commenting using your WordPress.com account. Log Out / Change )

Twitter picture

You are commenting using your Twitter account. Log Out / Change )

Facebook photo

You are commenting using your Facebook account. Log Out / Change )

Google+ photo

You are commenting using your Google+ account. Log Out / Change )

Connecting to %s