Scream – 2NE1 (Bass tab)

Difficulty (1-5): 3
# Strings: 4
Tuning: EADG (Standard)
Reference: http://www.dailymotion.com/video/xs33hy_scream-2ne1-bass-cover_music

0:03
    S P  PS S PS S  S PS SSS
G|----------------------------|  <--|-|
D|----4--4----4-------4-------|     | -|
A|----------------------------|     |  -|
E|--2-----2-2--2-2--2--2-023--|     |  -|
                                    |  -|
    S P  PS S PS S  S PS SSS        |  -|
G|----------------------------|     |  -|
D|----4--4----4-------4-------|     |  -|
A|----------------------------|     |  -|
E|--2-----2-2--2-2--2--2-023--|     |  -|Play
                                    |  -|
    S P  PS S PS S  S PS SSS        |  -| 3
G|----------------------------|     |  -|
D|----4--4----4-------4-------|     |  -|Times
A|----------------------------|     |  -|
E|--2-----2-2--2-2--2--2-023--|     |  -|
                                    |  -|
    S P  PS S PS  S S  S S          |  -|
G|--------------------------|       |  -|
D|----4--4----4-------------|       |  -|
A|--------------------------|       | -|
E|--2-----2-2--2-/9-5-/7-3--|    <--|-|


    S P  PS S PS S  S PS SSS
G|----------------------------|
D|----4--4----4------ 4-------|
A|----------------------------|
E|--2-----2-2--2-2--2--2-023--|

    S P  PS S PS S  S PS SSS
G|----------------------------|
D|----4--4----4------ 4-------|
A|----------------------------|
E|--2-----2-2--2-2--2--2-023--|

    S P  PS S PS S  S PS SSS
G|----------------------------|
D|----4--4----4------ 4-------|
A|----------------------------|
E|--2-----2-2--2-2--2--2-023--|

    S P  PS S PS S
G|------------------|
D|----4--4----4-----|
A|------------------|
E|--2-----2-2--2-2--|


1:03
    SP SPS SPS  SP SPS SPS  SP SPS SPS   SP SPS SPS
G|---7--x--7-7----------------------------4--x--4-6--|
D|---------------7--x--7-7---2--x--2-2---------------|
A|--5--x-x--5----------------------------2--x-x--4---|
E|--------------5--x-x--5---0--x-x--0----------------|

    SP SPS SPS  SP SPS SPS  SP SPS SPS
G|---7--x--7-7--------------------------|
D|---------------7--x--7-7---2--x--2-2--|
A|--5--x-x--5---------------------------|
E|--------------5--x-x--5---0--x-x--0---|


1:18
    S P  PS S PS S  S PS SSS
G|----------------------------|  <--|-|
D|----4--4----4-------4-------|     | -|
A|----------------------------|     |  -|
E|--2-----2-2--2-2--2--2-023--|     |  -|
                                    |  -|
    S P  PS S PS S  S PS SSS        |  -|
G|----------------------------|     |  -|
D|----4--4----4-------4-------|     |  -|
A|----------------------------|     |  -|
E|--2-----2-2--2-2--2--2-023--|     |  -|Play
                                    |  -|
    S P  PS S PS S  S PS SSS        |  -| 2
G|----------------------------|     |  -|
D|----4--4----4-------4-------|     |  -|Times
A|----------------------------|     |  -|
E|--2-----2-2--2-2--2--2-023--|     |  -|
                                    |  -|
    S P  PS S PS  S S  S S          |  -|
G|--------------------------|       |  -|
D|----4--4----4-------------|       |  -|
A|--------------------------|       | -|
E|--2-----2-2--2-/9-5-/7-3--|    <--|-|


    S P  PS S PS S  S PS SSS
G|----------------------------|
D|----4--4----4------ 4-------|
A|----------------------------|
E|--2-----2-2--2-2--2--2-023--|

    S P  PS S PS S  S PS SSS
G|----------------------------|
D|----4--4----4------ 4-------|
A|----------------------------|
E|--2-----2-2--2-2--2--2-023--|

    S P  PS S PS S  S PS SSS
G|----------------------------|
D|----4--4----4------ 4-------|
A|----------------------------|
E|--2-----2-2--2-2--2--2-023--|

    S P  PS S PS S     s
G|-------------------------|
D|----4--4----4------------|
A|-------------------------|
E|--2-----2-2--2-2----15\--|


2:03
    S P  PS S PS S  S PS SSS
G|----------------------------|
D|----4--4----4------ 4-------|
A|----------------------------|
E|--2-----2-2--2-2--2--2-023--|

    S P  PS S PS S  S PS SSS
G|----------------------------|
D|----4--4----4------ 4-------|
A|----------------------------|
E|--2-----2-2--2-2--2--2-023--|

    S P  PS S PS S  S PS SSS
G|----------------------------|
D|----4--4----4------ 4-------|
A|----------------------------|
E|--2-----2-2--2-2--2--2-023--|

    S P  PS S PS S
G|------------------|
D|----4--4----4-----|
A|------------------|
E|--2-----2-2--2-2--|


2:18
    SP SPS SPS  SP SPS SPS  SP SPS SPS   SP SPS SPS
G|---7--x--7-7----------------------------4--x--4-6--|
D|---------------7--x--7-7---2--x--2-2---------------|
A|--5--x-x--5----------------------------2--x-x--4---|
E|--------------5--x-x--5---0--x-x--0----------------|

    SP SPS SPS  SP SPS SPS  SP SPS SPS
G|---7--x--7-7--------------------------|
D|---------------7--x--7-7---2--x--2-2--|
A|--5--x-x--5---------------------------|
E|--------------5--x-x--5---0--x-x--0---|


2:33
G|-----------------------------------------------------------|
D|-----------------------------------------------------------|
A|----------------------------------------------2-2-2-2-2-2--|
E|--17\--2-2-2-2-2-2--5-5-5-5-5-5--0-0-0-0-0-0---------------|

G|------------------------------------------------------------------------------------------|
D|------------------------------------------------------------------------------------------|
A|-----------------------------------------2-2-2-2-2-2--2-2-2-2-/88888888-888888888888888\--|
E|--2-2-2-2-2-2--5-5-5-5-5-5--0-0-0-0-0-0---------------------------------------------------|


3:12
    SP SPS SPS  SP SPS SPS
G|---------------4--x--4-6--|
D|---2--x--2-2--------------|
A|--------------2--x-x--4---|
E|--0--x-x--0---------------|

    SP SPS SPS  SP SPS SPS  SP SPS SPS
G|---7--x--7-7--------------------------|
D|---------------7--x--7-7---2--x--2-2--|
A|--5--x-x--5---------------------------|
E|--------------5--x-x--5---0--x-x--0---|


3:24
    S P  PS S PS S  S PS SSS
G|----------------------------|
D|----4--4----4-------4-------|
A|----------------------------|
E|--2-----2-2--2-2--2--2-023--|

    S P  PS S PS S  S PS SSS
G|----------------------------|
D|----4--4----4-------4-------|
A|----------------------------|
E|--2-----2-2--2-2--2--2-023--|

    S P  PS S PS S  S PS SSS
G|----------------------------|
D|----4--4----4-------4-------|
A|----------------------------|
E|--2-----2-2--2-2--2--2-023--|

    S P  PS S PS  S S  S S
G|--------------------------|
D|----4--4----4-------------|
A|--------------------------|
E|--2-----2-2--2-/9-5-/7-3--|
Advertisements

Leave a Reply

Fill in your details below or click an icon to log in:

WordPress.com Logo

You are commenting using your WordPress.com account. Log Out / Change )

Twitter picture

You are commenting using your Twitter account. Log Out / Change )

Facebook photo

You are commenting using your Facebook account. Log Out / Change )

Google+ photo

You are commenting using your Google+ account. Log Out / Change )

Connecting to %s