Monster – Big Bang (Bass tab)

Difficulty (1-5): 2
# Strings: 4
Tuning: EADG (Standard)
Reference: http://www.dailymotion.com/video/xs33au_monster-big-bang-bass-cover_music

0:15
G|---------------------|
D|------7-9~ -7-5~ -9--|
A|--5~ ----------------|
E|---------------------|

0:30
G|---7--7--7--7--7--7--7--7--4--4--4--4--4--4--4--4--|
D|---------------------------------------------------|
A|--5--5--5--5--5--5--5--5--2--2--2--2--2--2--2--2---|
E|---------------------------------------------------|

G|---5--5--5--5--5--5--5--5--10--10--10--10--10--10--9--9--|
D|---------------------------------------------------------|
A|--3--3--3--3--3--3--3--3--8---8---8---8---8---8---7--7---|
E|---------------------------------------------------------|

G|---7--7--7--7--7--7--7--7--4--4--4--4--4--4--4--4--|
D|---------------------------------------------------|
A|--5--5--5--5--5--5--5--5--2--2--2--2--2--2--2--2---|
E|---------------------------------------------------|

G|---5--5--5--5--5--5--5--5--10--10--10--10---|
D|--------------------------------------------|
A|--3--3--3--3--3--3--3--3--8---8---8---8--8--|
E|--------------------------------------------|

1:00
    SP SP SP SP SP SP SP SP SP SP SP SP SP SP SP SP
G|---7--7--7--7--7--7--7--7--4--4--4--4--4--4--4--4--|
D|---------------------------------------------------|
A|--5--5--5--5--5--5--5--5--2--2--2--2--2--2--2--2---|
E|---------------------------------------------------|

    SP SP SP SP SP SP SP SP S P S P S P S P S P S P SP SP
G|---5--5--5--5--5--5--5--5--10--10--10--10--10--10--9--9--|
D|---------------------------------------------------------|
A|--3--3--3--3--3--3--3--3--8---8---8---8---8---8---7--7---|
E|---------------------------------------------------------|

    SP SP SP SP SP SP SP SP SP SP SP SP SP SP SP SP
G|---7--7--7--7--7--7--7--7--4--4--4--4--4--4--4--4--|
D|---------------------------------------------------|
A|--5--5--5--5--5--5--5--5--2--2--2--2--2--2--2--2---|
E|---------------------------------------------------|

    SP SP SP SP SP SP SP SP S P S P S P S PS
G|---5--5--5--5--5--5--5--5--10--10--10--10---|
D|--------------------------------------------|
A|--3--3--3--3--3--3--3--3--8---8---8---8--8--|
E|--------------------------------------------|

1:30
G|---7--7--7--7--7--7--7--7--4--4--4--4--4--4--4--4--|
D|---------------------------------------------------|
A|--5--5--5--5--5--5--5--5--2--2--2--2--2--2--2--2---|
E|---------------------------------------------------|

G|---5--5--5--5--5--5--5--5--10--10--10--10---|
D|--------------------------------------------|
A|--3--3--3--3--3--3--3--3--8---8---8---8--8--|
E|--------------------------------------------|

G|---7--7--7--7--7--7--7--7--4--4--4--4--4--4--4--4--|
D|---------------------------------------------------|
A|--5--5--5--5--5--5--5--5--2--2--2--2--2--2--2--2---|
E|---------------------------------------------------|

G|---5--5--5--5--5--5--5--5--10--10--10--10---|
D|--------------------------------------------|
A|--3--3--3--3--3--3--3--3--8---8---8---8--8--|
E|--------------------------------------------|

2:00
    SP SP SP SP SP SP SP SP SP SP SP SP SP SP SP SP
G|---7--7--7--7--7--7--7--7--4--4--4--4--4--4--4--4--|
D|---------------------------------------------------|
A|--5--5--5--5--5--5--5--5--2--2--2--2--2--2--2--2---|
E|---------------------------------------------------|

    SP SP SP SP SP SP SP SP S P S P S P S P S P S P SP SP
G|---5--5--5--5--5--5--5--5--10--10--10--10--10--10--9--9--|
D|---------------------------------------------------------|
A|--3--3--3--3--3--3--3--3--8---8---8---8---8---8---7--7---|
E|---------------------------------------------------------|

    SP SP SP SP SP SP SP SP SP SP SP SP SP SP SP SP
G|---7--7--7--7--7--7--7--7--4--4--4--4--4--4--4--4--|
D|---------------------------------------------------|
A|--5--5--5--5--5--5--5--5--2--2--2--2--2--2--2--2---|
E|---------------------------------------------------|

    SP SP SP SP SP SP SP SP S P S P S P S PS
G|---5--5--5--5--5--5--5--5--10--10--10--10---|
D|--------------------------------------------|
A|--3--3--3--3--3--3--3--3--8---8---8---8--8--|
E|--------------------------------------------|

2:45
G|--/7-/14-/16-14-------------------------14-/17--|
D|----------------17-14h17p14-14-14-17-14---------|
A|------------------------------------------------|
E|------------------------------------------------|

3:03
    SP SP SP SP SP SP SP SP SP SP SP SP SP SP SP SP
G|---7--7--7--7--7--7--7--7--4--4--4--4--4--4--4--4--|
D|---------------------------------------------------|
A|--5--5--5--5--5--5--5--5--2--2--2--2--2--2--2--2---|
E|---------------------------------------------------|

    SP SP SP SP SP SP SP SP S P S P S P S P S P S P SP SP
G|---5--5--5--5--5--5--5--5--10--10--10--10--10--10--9--9--|
D|---------------------------------------------------------|
A|--3--3--3--3--3--3--3--3--8---8---8---8---8---8---7--7---|
E|---------------------------------------------------------|

    SP SP SP SP SP SP SP SP SP SP SP SP SP SP SP SP
G|---7--7--7--7--7--7--7--7--4--4--4--4--4--4--4--4--|
D|---------------------------------------------------|
A|--5--5--5--5--5--5--5--5--2--2--2--2--2--2--2--2---|
E|---------------------------------------------------|

    SP SP SP SP SP SP SP SP S P S P S P S PS
G|---5--5--5--5--5--5--5--5--10--10--10--10---|
D|--------------------------------------------|
A|--3--3--3--3--3--3--3--3--8---8---8---8--8--|
E|--------------------------------------------|

3:33
G|---------------------------|
D|------7-9~ -7-5~ -9-7~ -5--|
A|--5~ ----------------------|
E|---------------------------|
Advertisements

Leave a Reply

Fill in your details below or click an icon to log in:

WordPress.com Logo

You are commenting using your WordPress.com account. Log Out / Change )

Twitter picture

You are commenting using your Twitter account. Log Out / Change )

Facebook photo

You are commenting using your Facebook account. Log Out / Change )

Google+ photo

You are commenting using your Google+ account. Log Out / Change )

Connecting to %s