Tokyo – Scandal (Bass tab)

Difficulty (1-5): 3
# Strings: 4
Tuning: EADG (Standard)
Reference: N/A

0:06
|--------------|
|--------------|
|--5--5--5--5--|
|--------------|

|-------------------------------5--|
|-----------------------------44---|
|--555-5-55-55-023-5355-53535------|
|----------------------------------|

|----------------------------------|
|----------------------------------|
|--555-5-55-55-023-5355-53535-553--|
|----------------------------------|

|-------------------------------5--|  <|--
|-----------------------------44---|   |Play
|--555-5-55-55--23-5355-53535------|   |Twice
|----------------------------------|  <|--

0:41
|-------------------------|  <|--
|-------------------------|   |Play
|--5----------------------|   |Twice
|---23-44-55-66-77-88-99--|  <|--

|-------------------------------5--|   <|--
|-----------------------------44---|    |
|--555-5-55-55-023-5355-53535------|    |
|----------------------------------|    |Play
                                        |
|----------------------------------|    |Twice
|----------------------------------|    |
|--555-5-55-55-023-5355-53535-553--|    |
|----------------------------------|   <|--

1:12
|----------------------------------------------|
|----------------------------------------------|
|--4(x8)-5(x8)-2(x16)-4(x8)-5(x8)--------------|
|---------------------------------3(x8)-5(x8)--|

1:38
|----------|
|----------|
|--5(x64)--|
|----------|

1:51
|-------------------|  <|--
|--------3-2--------|   |Play
|--5-1-2-----1-0-6--|   |Twice
|-------------------|  <|--

|-----------------------------------------------|
|-----------------------------------------------|
|--4(x8)-5(x8)-2(x16)-4(x8)-5(x8)-2(x13)-0-2-3--|
|-----------------------------------------------|

|-------------------------------------------|
|-------------------------------------------|
|--4(x5)-244-5(x5)-433-2(x5)-122-2(x5)-012--|
|-------------------------------------------|

|-------------------------------------------|
|--------------------------555---------7-7--|
|--4(x5)-244-5(x5)-------55---5------55-----|
|------------------012-33----------55-------|

2:24
|----------|
|----------|
|--5(x24)--|
|----------|

|-------------------------------5--|   <|-- 
|-----------------------------44---|    | 
|--555-5-55-55-023-5355-53535------|    | 
|----------------------------------|    |Play
                                        | 
|----------------------------------|    |Twice 
|----------------------------------|    | 
|--555-5-55-55-023-5355-53535-553--|    | 
|----------------------------------|   <|--
Advertisements

Leave a Reply

Fill in your details below or click an icon to log in:

WordPress.com Logo

You are commenting using your WordPress.com account. Log Out / Change )

Twitter picture

You are commenting using your Twitter account. Log Out / Change )

Facebook photo

You are commenting using your Facebook account. Log Out / Change )

Google+ photo

You are commenting using your Google+ account. Log Out / Change )

Connecting to %s