Shoujo S – Scandal (Bass tab)

Difficulty (1-5): 1
# Strings: 4
Tuning: EADG (Standard)
Reference: N/A

0:00
|-------------|  <|--
|-------------|   |Play 8
|--6-6--------|   |Times
|------4-4-4--|  <|--

|------------------------|  <|--
|------------------------|   |Play 4
|--6-6------------2-2-2--|   |Times
|------2-2-2--4-4--------|  <|--

|---------------------------|  <|--
|---------------------------|   |Play 4
|--6(x4)-------------2(x4)--|   |Times
|--------2(x4)-4(x4)--------|  <|--

|-------------------------------------------------------|
|-------------------------------------------------------|
|--2(x8)-------------------2(x8)------------------------|
|--------2(x8)-4(x8)-2(x8)-------2(x8)-4(x8)-6-6-6-6-6--|

0:57
|---------------------------------------------------|  <|--
|---------------------------------------------------|   |Play 2
|--6(x4)-------------2(x4)-6(x4)--------------------|   |Times
|--------2(x4)-4(x4)-------------2(x4)-4(x4)-6(x4)--|  <|--

|------------------------------------|
|------------------------------------|
|--2(x4)-4(x4)-6(x4)-----------------|
|--------------------4(x4)-7(x7)-6\--|

1:18
|-------------|  <|--
|-------------|   |Play 4
|--6-6--------|   |Times
|------4-4-4--|  <|--

|---------------------------|  <|--
|---------------------------|   |Play 4
|--6(x3)-------------2(x3)--|   |Times
|--------2(x3)-4(x3)--------|  <|--

|-------------------------------------------------|
|-------------------------------------------------|
|--2(x8)-------------------2(x8)------------------|
|--------2(x8)-4(x8)-2(x8)-------4(x7)-6-6-6-6-6--|

2:05
|-----------------------------------------|
|-----------------------------------------|
|--6(x4)-8(x4)-9(x4)-11-11-12-13(x5)-13\--|
|-----------------------------------------|

|---------------------------------------|
|---------------------------------------|
|--------2(x4)-6(x4)--------------------|
|--4(x4)-------------2(x4)-4(x4)-6(x2)--|

|---------------------------------------|
|---------------------------------------|
|--------2(x4)-6(x4)--------------------|
|--4(x4)-------------2(x4)-4(x4)-6(x4)--|

|-------------------------------------------|
|-------------------------------------------|
|--2(x4)-4(x4)-6(x4)------------------------|
|--------------------4(x4)-7(x7)-7-7-7-7-7--|

|---------------------------------------------------|  <|--
|---------------------------------------------------|   |Play 2
|--7(x4)-------------3(x4)-7(x4)--------------------|   |Times
|--------3(x4)-5(x4)-------------3(x4)-5(x4)-7(x4)--|  <|--

2:48
|------------------------------------|
|------------------------------------|
|--3(x4)-5(x4)-7(x4)-----------------|
|--------------------5(x4)-8(x5)-7\--|

|-------------|  <|--
|-------------|   |Play 8
|--7-7--------|   |Times
|------5-5-5--|  <|--
Advertisements

Leave a Reply

Fill in your details below or click an icon to log in:

WordPress.com Logo

You are commenting using your WordPress.com account. Log Out / Change )

Twitter picture

You are commenting using your Twitter account. Log Out / Change )

Facebook photo

You are commenting using your Facebook account. Log Out / Change )

Google+ photo

You are commenting using your Google+ account. Log Out / Change )

Connecting to %s