S.L. Magic – Scandal (Bass tab)

Difficulty (1-5): 4
# Strings: 4
Tuning: EADG (Standard)
Reference: N/A

(Guitar Intro)

0:22
|--------------------------------------------|
|--------------------------------------------|
|----------------3(x16)----------------------|
|--3(x16)-7(x16)--------5(x7)--8(x3)-10(x4)--|

|-------------------------------------|
|-------------------------------------|
|----------------3(x7)----------------|
|--3(x16)-7(x16)-------5(x8)-10(x16)--|

0:44
|-------------55----------------------------------|
|-----------5----77-55---------------55-----------|
|--33-55-77------------77----22-55-7----77-55-----|
|-------------------------33------------------77--|

|-------------55---------------------------------------|
|-----------5----77-55----------------12-10-9--10-9-7--|
|--33-55-77------------77-55-77-99-10------------------|
|------------------------------------------------------|

|-------------55----------------------------------|
|-----------5----77-55---------------55-----------|
|--33-55-77------------77----22-55-7----77-55-----|
|-------------------------33------------------77--|

|-------------55------------------------|
|-----------5----77-55----------12(x7)--|
|--33-55-77------------77-5(x5)---------|
|---------------------------------------|

1:06
|--------------------------------------------|
|--------------------------------------------|
|----------------3(x16)----------------------|
|--3(x16)-7(x16)--------5(x7)--8(x3)-10(x4)--|

|--------------------------|
|--------------------------|
|----------------3(x16)----|
|--3(x16)-7(x16)--------3--|

|-------------------------------------------------|
|-------------------------------------------------|
|---------------1-----------------1---------------|
|--3313-313-313--313-3313-313-313--313-3313-3133--|

|--------------------------------------------|
|--------------------------------------------|
|----------------3(x16)----------------------|
|--3(x16)-7(x16)--------5(x7)--8(x3)-10(x4)--|

|-------------------------------------------------------|
|-------------------------------------------------------|
|-----------------------------------3(x7)---------------|
|--33-33-33-33-3-3\77-77-77-77-7-7-------5(x8)-10(x16)--|

1:58
|-------------55----------------------------------|
|-----------5----77-55---------------55-----------|
|--33-55-77------------77----22-55-7----77-55-----|
|-------------------------33------------------77--|

|-------------55------------------------|
|-----------5----77-55----------12(x9)--|
|--33-55-77------------77-5(x5)---------|
|---------------------------------------|

|--------------------------------------------|
|--------------------------------------------|
|----------------3(x16)----------------------|
|--3(x16)-7(x16)--------5(x7)--8(x3)-10(x4)--|

|------------------------|
|------------------------|
|----------------3(x16)--|
|--3(x16)-7(x16)---------|

2:30
|----------------------------------------------|
|----------------------------------------------|
|-----------23-5----------23-20----------23-5--|
|--33-33-33------33-33-33-------33-33-33-------|

|-------------------------------79-45-242-020-0----|
|---------------4--55-55-55-5679---------------57--|
|-----------23-5-----------------------------------|
|--33-33-33----------------------------------------|

|-------------------------------|
|--55-55-55---------------------|
|-----------77-55-33------------|
|-------------------2-33-33-33--|

3:04
|-----------------------------------|
|-----------------------------------|
|-----------------------------------|
|--33-33-33-33-3-3\77-77-77-77-7-7--|

|--------------------------------------------|
|--------------------------------------------|
|--33-33-33-33-3-3-55-55-55-55-5-5-55-55-55--|
|--------------------------------------------|

|--------------------------------------------|
|--------------------------------------------|
|----------------3(x16)----------------------|
|--3(x16)-7(x16)--------5(x7)--8(x3)-10(x4)--|

|-------------------------------------|
|-------------------------------------|
|----------------3(x16)---------------|
|--3(x16)-7(x16)--------3(x7)\10(x6)--|

|--------------------------------------------|
|--------------------------------------------|
|----------------3(x16)----------------------|
|--3(x16)-7(x16)--------5(x7)--8(x3)-10(x4)--|

|---------------------------------|
|---------------------------------|
|----------------3(x16)-----------|
|--3(x16)-7(x16)--------33-33-33--|
Advertisements

Leave a Reply

Fill in your details below or click an icon to log in:

WordPress.com Logo

You are commenting using your WordPress.com account. Log Out / Change )

Twitter picture

You are commenting using your Twitter account. Log Out / Change )

Facebook photo

You are commenting using your Facebook account. Log Out / Change )

Google+ photo

You are commenting using your Google+ account. Log Out / Change )

Connecting to %s