Doll – Scandal (Bass tab)

Difficulty (1-5): 2
# Strings: 4
Tuning: EADG (Standard)
Reference: N/A

0:12
|-----------| <|--       |-----| <|--
|-----------|  |Play 4   |-----|  |Then
|-----------|  |Times    |-----|  |This
|-5-7-5-7\--| <|--       |--7--| <|--

0:38
|------------------------------------------------|
|------------------------------------------------|
|--------5(x8)-7(x8)--------5(x8)-7(x7)----------|
|--7(x8)-------------7(x16)-------------33-33-5--|

|-------------------------------------|
|----3/2-0------12/11-9-------3/2-0---|
|--2----------9-------------2------2--|
|-------------------------------------|

0:58
|--------------------------------------------------------------|
|--------------13(x4)-14(x4)-16(x4)-14(x4)-13(x4)-11(x4)-13-9--|
|--------------------------------------------------------------|
|--(5-7-5-7\-)-------------------------------------------------|

|--------------------------------------------------------------------|
|---------------13(x4)-14(x4)-16-16-19-16/14-14(x3)-13(x4)-11(x4)-9--|
|--------------------------------------------------------------------|
|--(5-7-5-7\-)-------------------------------------------------------|

|------------| <|--
|------------|  |Play 2
|------------|  |Times
|--5-7-5-7\--| <|--

|--------------------------------------------------|
|--------------------------------------------------|
|--------5(x8)-7(x8)--------5(x8)-7(x7)------------|
|--7(x8)-------------7(x16)-------------33-33-5-7--|

1:39
|-------------------| <|--       |-------------------| <|--
|-------------------|  |Play 2   |-------------------|  |Then
|------7-7----------|  |Times    |------767----------|  |This
|--9-9-----7-7-5-7--| <|--       |--989-----767-5-7--| <|--

|-----------------------------|
|-----------------------------|
|-----------------------------|
|--3(x4)-5(x4)-55-33-55-33-5--|

|---------------------------------|
|---------------------------------|
|-----------------16--------------|
|--4-2-5-4-3-7-9/-----3(x8)-55-5--|

2:11
|------------------------------------------------|
|------------------------------------------------|
|--------5(x8)-7(x8)--------5(x8)-7(x8)----------|
|--7(x8)-------------7(x16)-------------33-33-5--|

|--------------------------------------|
|--------------------------------------|
|---------5(x16)-7(x16)-10(x8)-12(x8)--|
|--7(x16)------------------------------|

2:37
|--------------------------------------------------|  <|--
|--------------------------------------------------|   |
|------------------55-555-555-555-577-777-777-777--|   |
|--77-777-777-777-7--------------------------------|   |Play 2
                                                       |
|---------------------------------|                    |Times
|---------------------------------|                    |
|--71010-101010-101212-121212-12--|                    |
|---------------------------------|                   <|--

|--------------------------------------|
|--------------------------------------|
|---------5(x16)-7(x16)-10(x8)-12(x5)--|
|--7(x16)------------------------------|

|--------------------|
|--------------------|
|--------------------|
|--5-7-5-7----11-7\--|
Advertisements

Leave a Reply

Fill in your details below or click an icon to log in:

WordPress.com Logo

You are commenting using your WordPress.com account. Log Out / Change )

Twitter picture

You are commenting using your Twitter account. Log Out / Change )

Facebook photo

You are commenting using your Facebook account. Log Out / Change )

Google+ photo

You are commenting using your Google+ account. Log Out / Change )

Connecting to %s