Lonely (Reggae Ver.) – 2NE1 (Bass tab)

Difficulty (1-5): 3
# Strings: 4
Tuning: EADG (Standard)
Reference: http://www.youtube.com/watch?v=sw5H4bmFO2g

* Recommended

G|----------------------------------------|
D|--------------------------6--------4----|
A|--------2------/36---444/7--4-222/6--2--|
E|--0-00/4--234-4----4--------------------|

G|----------------------------------------|
D|--------------------------6--------4----|
A|--------2------/36---444/7--4-222/6--2--|
E|--0-00/4--234-4----4--------------------|

G|----------------------------------------|
D|--------------------------6--------4----|
A|--------2------/36---444/7--43222/6--2--|
E|--0-00/4--234-4----4--------------------|

G|------------------------------------|
D|--------------------------6---------|
A|--------2------/36---444/7--43~ 5~ -|
E|--0-00/4--234-4----4----------------|

0:43
G|----------------------------------------------|
D|-----------------------------6---------4---4--|
A|--------2-------/36---6-444/7--x43222/6--x2---|
E|--0-00/4--x234-4----x4------------------------|

G|-------------------------------------------|
D|-----------------------------6-------------|
A|--------2-------/36---6-444/7--x432~ /15\--|
E|--0-00/4--x234-4----x4---------------------|

G|--------------------------------------------------|
D|----------------------------6------------4-/64-4--|
A|-------2--------36---6-444-7--x43-222-2/6-----6---|
E|--000-4--x23-444---x4-----------------------------|

G|---------------------------------------|
D|----------------------------6----------|
A|-------2--------36---6-444-7--43~ 5~ --|
E|--000-4--x23-444---x4------------------|

1:25
G|-------------------------------------|
D|---------------------------------4---|
A|-------------------424-2h4-4-2224-2--|
E|--0-4h70-2-4-24424--------4----------|

G|--------------------------------------|
D|--------------------------/99-999999--|
A|----2-----------424-2h4-4-------------|
E|--04--2-4-24424--------4--------------|

G|----------------------------4----|
D|-------------------------4---4---|
A|----2--------6--4424-4-22-2---2--|
E|--04--234424--4------------------|

G|----------------------------------|
D|----------------------------------|
A|----2---------6--44244243~ 5/17\--|
E|--04--2-4424-4-4------------------|

2:05
G|-----------------------------------------|
D|---------------------------6--------4----|
A|--------2------/36--6-444/7--43222/6--2--|
E|--0-00/4--234-4----4---------------------|

G|----------------------------------------|
D|---------------------------6------------|
A|--------2------/36--6-444/7--432~ ------|
E|--0-00/4--234-4----4--------------/17\--|

G|--------------------------------------------------|
D|----------------------------6------------4-/64-4--|
A|-------2--------36---6-444-7--x43-222-2/6-----6---|
E|--000-4--x23-444---x4-----------------------------|

G|---------------------------------------|
D|----------------------------6----------|
A|-------2--------36---6-444-7--43~ 5~ --|
E|--000-4--x23-444---x4------------------|

2:45
G|-------------------------------------------------------------|
D|----9------------6------------9--------13----11--11-9\-------|
A|--7---7\---6---4---4\---9---7---7-9-11----11---11------------|
E|---------4---4--------7---7----------------------------/17\--|

G|--------------------------------------------------|
D|----------------------------6------------4-/64-4--|
A|-------2--------36---6-444-7--x43-222-2/6-----6---|
E|--000-4--x23-444---x4-----------------------------|

G|---------------------------------------|
D|----------------------------6----------|
A|-------2--------36---6-444-7--43~ 5~ --|
E|--000-4--x23-444---x4------------------|
Advertisements

Leave a Reply

Fill in your details below or click an icon to log in:

WordPress.com Logo

You are commenting using your WordPress.com account. Log Out / Change )

Twitter picture

You are commenting using your Twitter account. Log Out / Change )

Facebook photo

You are commenting using your Facebook account. Log Out / Change )

Google+ photo

You are commenting using your Google+ account. Log Out / Change )

Connecting to %s