Love Song – Big Bang (Bass tab)

Difficulty (1-5): 3
# Strings: 4
Tuning: EADG (Standard)
Reference: http://www.youtube.com/watch?v=y4C7h1C_6BE

Main notes are played on the off-beat.

0:17
|----------------------------------------|
|----------------------------------------|
|--22\--5-5-5-5-0-0-0-0-2-2-2-2----------|
|-------------------------------3-3-3-3--|

|-----------------------------------|
|-----------------------------------|
|--5-5-5-5-0-0-0-0-2-2-2-2----------|
|--------------------------3-3-3-3--|

|-----------------------------------------|
|-----/9-7-7/9-------------9-7-7-9--------|
|--/5----------9-10---/5-/9-9------9-10\--|
|-----------------------------------------|

|----------------------------|
|----7-----------------------|
|--/5-5\---10-----9-----5----|
|--------/8--8\-/7-7\-/3-3\--|

|-----------------------------------|
|----7------------------------------|
|--/5-5\---10-----9-----------------|
|--------/8--8\-/7-7\--33333-3/15\--|

|------------------------------------|
|--------------------------------4---|
|--5-5-5-5-0-0-0-0-2-2-2-2-----/5-5--|
|--------------------------3-3-------|

|--------------------------------------|
|-----------------------------4-5-4----|
|--5-5-5-5-0-0-0-0-2-2-2-2--/5-5-5-5\--|
|--------------------------------------|

1:35
|-----------------------------------------|
|-------------------------------------4---|
|--22\--5-5-5-5-0-0-0-0-2-2-2-2-----/5-5--|
|-------------------------------3-3-------|

|-----------------------------------|
|-----------------------------------|
|--5-5-5-5-0-0-0-0-2-2-2-2----------|
|--------------------------3-3-3-3--|

|------------------------------------------|
|-----/9-7-7/9--------------9-7-7-9--------|
|--/5----------9-10\---/5-/9-9------9-10\--|
|------------------------------------------|

|----------------------------|
|----7-----------------------|
|--/5-5\---10-----9-----5----|
|--------/8--8\-/7-7\-/3-3\--|

|-----------------------------------|
|----7------------------------------|
|--/5-5\---10-----9-----------------|
|--------/8--8\-/7-7\--33333-3/15\--|

|------------------------------------|
|--------------------------------4---|
|--5-5-5-5-0-0-0-0-2-2-2-2-----/5-5--|
|--------------------------3-3-------|

|-------------------------------------|
|-----------------------------4-5-4---|
|--5-5-5-5-0-0-0-0-2-2-2-2--/5-5-5-5--|
|-------------------------------------|

|-----------------------------------|
|-----------------------------------|
|--5-5-5-5-0-0-0-0-2-2-2-2----------|
|--------------------------3-3-3-3--|

|-----------------------------------|
|-----------------------------------|
|--5-5-5-5-0-0-0-0-2-2-2-2----------|
|--------------------------3-3-3-3--|

2:54
|------------------------------------------|
|-----------------------------------/5-4---|
|--55555555-00000000-22222222-----------5--|
|-----------------------------33333--------|
^  Don't let these notes ring until the fill at the end.

|---------|
|--/7-9\--|
|---------|
|---------|

|-------------------------------------|
|-----77------------------------------|
|--/55--5\----1010------99------55----|
|----------/88----8\-/77--7\-/33--3\--|

|------------------------------------------|
|-----77-----------------------------------|
|--/55--5\----1010------99-----------------|
|----------/88----8\-/77--7\--33333-3/15\--|

|------------------------------------|
|--------------------------------4---|
|--5-5-5-5-0-0-0-0-2-2-2-2-----/5-5--|
|--------------------------3-3-------|

|-----------------------------------------|
|-----------------------------------------|
|--5-5-5-5-0-0-0-0-2-2-2-2-----------5~ --|
|--------------------------3-3-3/15\------|
Advertisements

Leave a Reply

Fill in your details below or click an icon to log in:

WordPress.com Logo

You are commenting using your WordPress.com account. Log Out / Change )

Twitter picture

You are commenting using your Twitter account. Log Out / Change )

Facebook photo

You are commenting using your Facebook account. Log Out / Change )

Google+ photo

You are commenting using your Google+ account. Log Out / Change )

Connecting to %s