Alone – Sistar (Bass tab)

Difficulty (1-5): 2
# Strings: 5
Tuning: BEADG (Standard)
Reference: http://www.youtube.com/watch?v=mxQ4qU55YP0

0:16
G|---------------------------------------| <--|--
D|---------------------------------------|    | Play
A|--7-75---7-75----56--------------------|    | 
E|------7------7-77----7-75---7-75---56--|    | 5 Times
B|-------------------------7------7-7----| <--|--

G|-------------------------------------|
D|-------------------------------------|
A|--7-75---7-75----56------------------|
E|------7------7-77----7-75---7--/17\--|
B|-------------------------7-----------|

1:07
G|-----------------------------------------------------------------------|
D|-----------------------------------------------------------------------|
A|--7777777777777777------------------3333333333333333-2222222222222222--|
E|-------------------7777777777777777------------------------------------|
B|-----------------------------------------------------------------------|

G|----------------------------------------------------------------|
D|----------------------------------------------------------------|
A|--7777777777777777------------------3333333333333333-222222222--|
E|-------------------7777777777777777-----------------------------|
B|----------------------------------------------------------------|

1:40
G|-------------------------------------------|
D|-------------------------------------------|
A|--333----75--55-----53--66----96--7757-75--|
E|-----53-3------75-55------75-5-------------|
B|-------------------------------------------|

G|------------------------------------|
D|------------------------------------|
A|--333----75--55-----53-222222222~ --|
E|-----53-3------75-55----------------|
B|------------------------------------|

G|---------------------------------------|
D|---------------------------------------|
A|--7-75---7-75----56--------------------|
E|------7------7-77----7-75---7-75---56--|
B|-------------------------7------7-7----|

G|-------------------------------------|
D|-------------------------------------|
A|--7-75---7-75----56------------------|
E|------7------7-77----7-75---7--/17\--|
B|-------------------------7-----------|

2:13
G|-----------------------------------------------------------------------|
D|-----------------------------------------------------------------------|
A|--7777777777777777------------------3333333333333333-2222222222222222--|
E|-------------------7777777777777777------------------------------------|
B|-----------------------------------------------------------------------|

G|-----------------------------------------------------------------------|
D|-----------------------------------------------------------------------|
A|--7777777777777777------------------3333333333333333-2222222222222222--|
E|-------------------7777777777777777------------------------------------|
B|-----------------------------------------------------------------------|

2:47
G|--------------------------------------|
D|--------------------------------------|
A|--7-75---7-75----56---------------56--|
E|------7------7-77----7-75---7---57----|
B|-------------------------7------------|

G|---------------------------------------| <--|--
D|---------------------------------------|    | Play
A|--7-75---7-75----56--------------------|    | 
E|------7------7-77----7-75---7-75---56--|    | 3 Times
B|-------------------------7------7-7----| <--|--
Advertisements

Leave a Reply

Fill in your details below or click an icon to log in:

WordPress.com Logo

You are commenting using your WordPress.com account. Log Out / Change )

Twitter picture

You are commenting using your Twitter account. Log Out / Change )

Facebook photo

You are commenting using your Facebook account. Log Out / Change )

Google+ photo

You are commenting using your Google+ account. Log Out / Change )

Connecting to %s