Wonder Woman – T-ara, SeeYA, Davichi (Bass tab)

Difficulty (1-5): 4
# Strings: 4
Tuning: EADG (Standard)
Reference: http://www.youtube.com/watch?v=KhmOoWUbE6

* Recommended

G|--------------------------8--6--4--3--|
D|---------4----------3-2---------------|
A|----6-54---2----6--------6--4--2--1---|
E|--4------------6--4-------------------|

0:15
G|-------------------------------------------------------------------------8--6--4--3--|
D|-----------------4-------64-----------1----------------03--------02------------------|
A|---------4--66-06-76--44---764--22-024-2-----06----------424-------2-2--6--4--2--1---|
E|--44-0467---------------------------------66---646--44--------00----4----------------|

G|-------------------------------------------------------------------------8--6--4--3--|
D|-----------------4-------64-----------1----------------03--------02------------------|
A|---------4--66-06-76--44---764--22-024-2-----06----------424-------2-2--6--4--2--1---|
E|--44-0467---------------------------------66---646--44--------00----4----------------|

0:59
G|--------------------------------------------------------------------------------|
D|--------------------------------5-----------------------------------------------|
A|--88-08-10-11----------8--66-068-6-------36--44-043----------24-------243--4-6--|
E|-------------8--66-0689------------44-046----------64--22-024---33-024----------|

G|-------------------------------------------------------------------------8--6--4--3--|
D|-----------------4-------64-----------1----------------03--------02------------------|
A|---------4--66-06-76--44---764--22-024-2-----06----------424-------2-2--6--4--2--1---|
E|--44-0467---------------------------------66---646--44--------00----4----------------|

G|-------------------------------------------------------------------------8--6--4--3--|
D|-----------------4-------64-----------1----------------03--------02------------------|
A|---------4--66-06-76--44---764--22-024-2-----06----------424-------2-2--6--4--2--1---|
E|--44-0467---------------------------------66---646--44--------00----4----------------|

G|----------------------------|
D|---------4----------3-2-----|
A|----6-54---2----6--------6--|
E|--4------------6--4---------|

2:10
G|--------------------------------------------------------------------------------|
D|--------------------------------5-----------------------------------------------|
A|--88-08-10-11----------8--66-068-6-------36--44-043----------24-------243--4-6--|
E|-------------8--66-0689------------44-046----------64--22-024---33-024----------|

G|-------------------------------------------------------------------------8--6--4--3--|
D|-----------------4-------64-----------1----------------03--------02------------------|
A|---------4--66-06-76--44---764--22-024-2-----06----------424-------2-2--6--4--2--1---|
E|--44-0467---------------------------------66---646--44--------00----4----------------|

G|-------------------------------------------------------------------------8--6--4--3--|
D|-----------------4-------64-----------1----------------03--------02------------------|
A|---------4--66-06-76--44---764--22-024-2-----06----------424-------2-2--6--4--2--1---|
E|--44-0467---------------------------------66---646--44--------00----4----------------|

G|---------------------------------------------8--6--4--3--|
D|---------4------------------03-------02------------------|
A|----6-54---2------06----------424------2-2--6--4--2--1---|
E|--4------------66---646--44-------00----4----------------|

G|-------------------------------------------------------------------------8--6--4--3--|
D|-----------------4-------64-----------1----------------03--------02------------------|
A|---------4--66-06-76--44---764--22-024-2-----06----------424-------2-2--6--4--2--1---|
E|--44-0467---------------------------------66---646--44--------00----4----------------|

G|----------------------------|
D|---------4----------3-2-----|
A|----6-54---2----6--------6--|
E|--4------------6--4---------|
Advertisements

Leave a Reply

Fill in your details below or click an icon to log in:

WordPress.com Logo

You are commenting using your WordPress.com account. Log Out / Change )

Twitter picture

You are commenting using your Twitter account. Log Out / Change )

Facebook photo

You are commenting using your Facebook account. Log Out / Change )

Google+ photo

You are commenting using your Google+ account. Log Out / Change )

Connecting to %s