Maji Bomber!! – Berryz Koubou (Bass tab)

Difficulty (1-5): 4
# Strings: 4
Tuning: EADG (Standard)
Reference: https://www.youtube.com/watch?v=2R9wHw61xqM

* Recommended

0:04
|---------------------------------------------|
|---------------------------------------------|
|------------3(x3)-1(x4)-3(x4)--66-66---------|
|--8\-1(x4)----------------------66--66-888\--|

|------------------------------------------------------------------|
|----------------------------------------------------00330---2552--|
|--------1(x7)-3(x5)-8(x4)-7(x4)-5(x5)-3(x3)-0(x4)-11------33------|
|--1(x5)-----------------------------------------------------------|

|------------------------------------------------------------|
|----------------------------------------------------00330---|
|--------1(x7)-3(x5)-8(x4)-7(x4)-5(x5)-3(x3)-0(x4)-11-----1--|
|--1(x5)-----------------------------------------------------|

|-----------------------------------|
|-----------------------------------|
|--------1(x3)-3(x3)-------1(x3)-3--|
|--1(x7)-------------1(x7)----------|

0:36
|---------------------------------------555--|
|----------------------30------------50------|
|---------5(x16)-1(x9)---1-111-3(x8)---------|
|--1(x16)------------------------------------|

|---------------------------------------|
|------33----255-------------5/12-1212--|
|----11--1-33---3-8-888-76555-----------|
|--11-----------------------------------|

|------------------------------------|
|--------3----333--------------------|
|--1-111--1222-----------------------|
|---------------/8-8(x5)-8-06-05-03--|

|------------------------------------------------------------------|
|----------------------------------------------------00330---2552--|
|--------1(x7)-3(x5)-8(x4)-7(x4)-5(x5)-3(x3)-0(x4)-11------33------|
|--1(x5)-----------------------------------------------------------|

|------------------------------------------------------------|
|----------------------------------------------------00330---|
|--------1(x7)-3(x5)-8(x4)-7(x4)-5(x5)-3(x3)-0(x4)-11-----1--|
|--1(x5)-----------------------------------------------------|

|-----------------------------------|
|-----------------------------------|
|--------1(x3)-3(x3)-------1(x3)-3--|
|--1(x7)-------------1(x7)----------|

1:21
|----------------------------------------------------|
|----------------------3---3---------------------10--|
|---------5(x16)-1(x9)--111-11-333-3/5-55-5/7-777----|
|--1(x16)--------------------------------------------|

|-----------5---------------7---------------------------------------|
|----3----25-52-----------5--7--------3-----5-----------------------|
|---1-11-3------8-888-7657------1-111--1222--2----------------------|
|--1-------------------------------------------/8-8(x5)-8-06-05-03--|

|------------------------------------------------------------------|
|----------------------------------------------------00330---2552--|
|--------1(x7)-3(x5)-8(x4)-7(x4)-5(x5)-3(x3)-0(x4)-11------33------|
|--1(x5)-----------------------------------------------------------|

|---------------------------------------------------------|
|---------------------------------------------------------|
|--------1(x7)-3(x5)-8(x4)-7(x4)-5(x5)-3(x3)-0(x4)-1(x8)--|
|--1(x5)--------------------------------------------------|

2:01
|--------------------------|
|--------------------32----|
|-------333-33--1-113--53--|
|--1-11--------------------|

|------------------------10-9-------|
|---------------------/10----12-10--|
|-------333-33--1-113---------------|
|--1-11-----------------------------|

|-------------------------------------------------------|
|-------------------------------------------------------|
|-------------------------7--------2(x7)-3333-3333-333--|
|--3(x5)-5(x7)-6(x5)-5-555-5-3(x5)----------------------|

|------------------------------------------|
|------------------------------------------|
|--------1111-33-44-5-3\--1(x5)-0(x3)-440--|
|--1(x5)-----------------------------------|

|------------------|
|------33----255---|
|----11--1-33---3--|
|--11--------------|

2:31
|-------------------------------------------------------------------|
|-------------------------------------------------------------------|
|--------1(x7)-3(x5)-8(x4)-7(x4)-5(x5)-3(x3)-0(x4)-1(x5)-11110-/7\--|
|--1(x5)------------------------------------------------------------|

|---------------------------------------------------------------55---|
|------------------------------------------------------0033----2-----|
|--------1(x7)-3(x5)-8(x4)-7(x4)-5(x5)-3(x3)-0(x4)---11----1-33---3--|
|--1(x5)-------------------------------------------------------------|

|-----------------------------------------------------5\3-5\3-2-----|
|--------------------------------------------------------------30---|
|--------1(x7)-3(x5)-8(x4)-7(x4)-555-35-3(x3)-0(x4)--1-----------1--|
|--1(x5)------------------------------------------------------------|

|---------------------------|  <|--
|---------------------------|   |Play 3
|--------3(x3)-1(x4)-3(x4)--|   |Times
|--1(x4)--------------------|  <|--

|--------------------|
|--------------------|
|--66--66------------|
|----66--66-888\1~ --|
Advertisements

Leave a Reply

Fill in your details below or click an icon to log in:

WordPress.com Logo

You are commenting using your WordPress.com account. Log Out / Change )

Twitter picture

You are commenting using your Twitter account. Log Out / Change )

Facebook photo

You are commenting using your Facebook account. Log Out / Change )

Google+ photo

You are commenting using your Google+ account. Log Out / Change )

Connecting to %s